  0
SECTION
  2
HEADER
  9
$ACADVER
  1
AC1015
  9
$ACADMAINTVER
 70
     6
  9
$DWGCODEPAGE
  3
ANSI_1254
  9
$INSBASE
 10
0.0
 20
0.0
 30
0.0
  9
$EXTMIN
 10
0.0
 20
0.0
 30
0.0
  9
$EXTMAX
 10
279.4
 20
215.9
 30
0.0
  9
$LIMMIN
 10
0.0
 20
0.0
  9
$LIMMAX
 10
279.4
 20
215.9
  9
$ORTHOMODE
 70
     0
  9
$REGENMODE
 70
     1
  9
$FILLMODE
 70
     1
  9
$QTEXTMODE
 70
     0
  9
$MIRRTEXT
 70
     1
  9
$LTSCALE
 40
1.0
  9
$ATTMODE
 70
     1
  9
$TEXTSIZE
 40
3.5
  9
$TRACEWID
 40
1.0
  9
$TEXTSTYLE
  7
Standard
  9
$CLAYER
  8
0
  9
$CELTYPE
  6
ByLayer
  9
$CECOLOR
 62
   256
  9
$CELTSCALE
 40
1.0
  9
$DISPSILH
 70
     0
  9
$DIMSCALE
 40
1.0
  9
$DIMASZ
 40
3.5
  9
$DIMEXO
 40
1.0
  9
$DIMDLI
 40
3.75
  9
$DIMRND
 40
0.0
  9
$DIMDLE
 40
0.0
  9
$DIMEXE
 40
1.0
  9
$DIMTP
 40
0.0
  9
$DIMTM
 40
0.0
  9
$DIMTXT
 40
3.5
  9
$DIMCEN
 40
2.5
  9
$DIMTSZ
 40
0.0
  9
$DIMTOL
 70
     0
  9
$DIMLIM
 70
     0
  9
$DIMTIH
 70
     1
  9
$DIMTOH
 70
     1
  9
$DIMSE1
 70
     0
  9
$DIMSE2
 70
     0
  9
$DIMTAD
 70
     1
  9
$DIMZIN
 70
     0
  9
$DIMBLK
  1

  9
$DIMASO
 70
     1
  9
$DIMSHO
 70
     1
  9
$DIMPOST
  1

  9
$DIMAPOST
  1

  9
$DIMALT
 70
     0
  9
$DIMALTD
 70
     3
  9
$DIMALTF
 40
0.0393700787
  9
$DIMLFAC
 40
1.0
  9
$DIMTOFL
 70
     1
  9
$DIMTVP
 40
0.0
  9
$DIMTIX
 70
     0
  9
$DIMSOXD
 70
     0
  9
$DIMSAH
 70
     0
  9
$DIMBLK1
  1

  9
$DIMBLK2
  1

  9
$DIMSTYLE
  2
ISO-25
  9
$DIMCLRD
 70
     0
  9
$DIMCLRE
 70
     0
  9
$DIMCLRT
 70
     0
  9
$DIMTFAC
 40
1.0
  9
$DIMGAP
 40
1.524
  9
$DIMJUST
 70
     0
  9
$DIMSD1
 70
     0
  9
$DIMSD2
 70
     0
  9
$DIMTOLJ
 70
     0
  9
$DIMTZIN
 70
     0
  9
$DIMALTZ
 70
     0
  9
$DIMALTTZ
 70
     0
  9
$DIMUPT
 70
     0
  9
$DIMDEC
 70
     2
  9
$DIMTDEC
 70
     2
  9
$DIMALTU
 70
     2
  9
$DIMALTTD
 70
     3
  9
$DIMTXSTY
  7
Standard
  9
$DIMAUNIT
 70
     0
  9
$DIMADEC
 70
     2
  9
$DIMALTRND
 40
0.0
  9
$DIMAZIN
 70
     0
  9
$DIMDSEP
 70
    44
  9
$DIMATFIT
 70
     3
  9
$DIMFRAC
 70
     0
  9
$DIMLDRBLK
  1

  9
$DIMLUNIT
 70
     2
  9
$DIMLWD
 70
    -2
  9
$DIMLWE
 70
    -2
  9
$DIMTMOVE
 70
     0
  9
$LUNITS
 70
     2
  9
$LUPREC
 70
     2
  9
$SKETCHINC
 40
1.0
  9
$FILLETRAD
 40
10.0
  9
$AUNITS
 70
     0
  9
$AUPREC
 70
     2
  9
$MENU
  1
.
  9
$ELEVATION
 40
0.0
  9
$PELEVATION
 40
0.0
  9
$THICKNESS
 40
0.0
  9
$LIMCHECK
 70
     0
  9
$CHAMFERA
 40
0.0
  9
$CHAMFERB
 40
0.0
  9
$CHAMFERC
 40
0.0
  9
$CHAMFERD
 40
0.0
  9
$SKPOLY
 70
     0
  9
$TDCREATE
 40
2458985.699820787
  9
$TDUCREATE
 40
2458985.574820787
  9
$TDUPDATE
 40
2458985.699821088
  9
$TDUUPDATE
 40
2458985.574821088
  9
$TDINDWG
 40
0.0000000116
  9
$TDUSRTIMER
 40
0.0000000116
  9
$USRTIMER
 70
     1
  9
$ANGBASE
 50
0.0
  9
$ANGDIR
 70
     0
  9
$PDMODE
 70
     0
  9
$PDSIZE
 40
-1.0
  9
$PLINEWID
 40
0.0
  9
$SPLFRAME
 70
     0
  9
$SPLINETYPE
 70
     6
  9
$SPLINESEGS
 70
     8
  9
$HANDSEED
  5
EF
  9
$SURFTAB1
 70
     6
  9
$SURFTAB2
 70
     6
  9
$SURFTYPE
 70
     6
  9
$SURFU
 70
     6
  9
$SURFV
 70
     6
  9
$UCSBASE
  2

  9
$UCSNAME
  2

  9
$UCSORG
 10
0.0
 20
0.0
 30
0.0
  9
$UCSXDIR
 10
1.0
 20
0.0
 30
0.0
  9
$UCSYDIR
 10
0.0
 20
1.0
 30
0.0
  9
$UCSORTHOREF
  2

  9
$UCSORTHOVIEW
 70
     0
  9
$UCSORGTOP
 10
0.0
 20
0.0
 30
0.0
  9
$UCSORGBOTTOM
 10
0.0
 20
0.0
 30
0.0
  9
$UCSORGLEFT
 10
0.0
 20
0.0
 30
0.0
  9
$UCSORGRIGHT
 10
0.0
 20
0.0
 30
0.0
  9
$UCSORGFRONT
 10
0.0
 20
0.0
 30
0.0
  9
$UCSORGBACK
 10
0.0
 20
0.0
 30
0.0
  9
$PUCSBASE
  2

  9
$PUCSNAME
  2

  9
$PUCSORG
 10
0.0
 20
0.0
 30
0.0
  9
$PUCSXDIR
 10
1.0
 20
0.0
 30
0.0
  9
$PUCSYDIR
 10
0.0
 20
1.0
 30
0.0
  9
$PUCSORTHOREF
  2

  9
$PUCSORTHOVIEW
 70
     0
  9
$PUCSORGTOP
 10
0.0
 20
0.0
 30
0.0
  9
$PUCSORGBOTTOM
 10
0.0
 20
0.0
 30
0.0
  9
$PUCSORGLEFT
 10
0.0
 20
0.0
 30
0.0
  9
$PUCSORGRIGHT
 10
0.0
 20
0.0
 30
0.0
  9
$PUCSORGFRONT
 10
0.0
 20
0.0
 30
0.0
  9
$PUCSORGBACK
 10
0.0
 20
0.0
 30
0.0
  9
$USERI1
 70
     0
  9
$USERI2
 70
     0
  9
$USERI3
 70
     0
  9
$USERI4
 70
     0
  9
$USERI5
 70
     0
  9
$USERR1
 40
0.0
  9
$USERR2
 40
0.0
  9
$USERR3
 40
0.0
  9
$USERR4
 40
0.0
  9
$USERR5
 40
0.0
  9
$WORLDVIEW
 70
     1
  9
$SHADEDGE
 70
     3
  9
$SHADEDIF
 70
    70
  9
$TILEMODE
 70
     1
  9
$MAXACTVP
 70
    64
  9
$PINSBASE
 10
0.0
 20
0.0
 30
0.0
  9
$PLIMCHECK
 70
     0
  9
$PEXTMIN
 10
1.0000000000E+20
 20
1.0000000000E+20
 30
1.0000000000E+20
  9
$PEXTMAX
 10
-1.0000000000E+20
 20
-1.0000000000E+20
 30
-1.0000000000E+20
  9
$PLIMMIN
 10
0.0
 20
0.0
  9
$PLIMMAX
 10
420.0
 20
297.0
  9
$UNITMODE
 70
     0
  9
$VISRETAIN
 70
     1
  9
$PLINEGEN
 70
     0
  9
$PSLTSCALE
 70
     1
  9
$TREEDEPTH
 70
  3020
  9
$CMLSTYLE
  2
Standard
  9
$CMLJUST
 70
     0
  9
$CMLSCALE
 40
20.0
  9
$PROXYGRAPHICS
 70
     1
  9
$MEASUREMENT
 70
     1
  9
$CELWEIGHT
370
    -1
  9
$ENDCAPS
280
     0
  9
$JOINSTYLE
280
     0
  9
$LWDISPLAY
290
     1
  9
$INSUNITS
 70
     4
  9
$HYPERLINKBASE
  1

  9
$STYLESHEET
  1

  9
$XEDIT
290
     1
  9
$CEPSNTYPE
380
     0
  9
$PSTYLEMODE
290
     1
  9
$FINGERPRINTGUID
  2
{eec76695-c7b9-45e4-bd94-9becd90343f1}
  9
$VERSIONGUID
  2
{FAEB1C32-E019-11D5-929B-00C0DF256EC4}
  9
$EXTNAMES
290
     1
  9
$PSVPSCALE
 40
0.0
  9
$OLESTARTUP
290
     0
  0
ENDSEC
  0
SECTION
  2
CLASSES
  0
CLASS
  1
ACDBDICTIONARYWDFLT
  2
AcDbDictionaryWithDefault
  3
ObjectDBX Classes
 90
        0
280
     0
281
     0
  0
CLASS
  1
VISUALSTYLE
  2
AcDbVisualStyle
  3
ObjectDBX Classes
 90
     4095
280
     0
281
     0
  0
CLASS
  1
MATERIAL
  2
AcDbMaterial
  3
ObjectDBX Classes
 90
     1153
280
     0
281
     0
  0
CLASS
  1
SCALE
  2
AcDbScale
  3
ObjectDBX Classes
 90
     1153
280
     0
281
     0
  0
CLASS
  1
TABLESTYLE
  2
AcDbTableStyle
  3
ObjectDBX Classes
 90
     4095
280
     0
281
     0
  0
CLASS
  1
MLEADERSTYLE
  2
AcDbMLeaderStyle
  3
ACDB_MLEADERSTYLE_CLASS
 90
     4095
280
     0
281
     0
  0
CLASS
  1
SUN
  2
AcDbSun
  3
SCENEOE
 90
     1153
280
     0
281
     0
  0
CLASS
  1
ACDBPLACEHOLDER
  2
AcDbPlaceHolder
  3
ObjectDBX Classes
 90
        0
280
     0
281
     0
  0
CLASS
  1
LAYOUT
  2
AcDbLayout
  3
ObjectDBX Classes
 90
        0
280
     0
281
     0
  0
ENDSEC
  0
SECTION
  2
TABLES
  0
TABLE
  2
VPORT
  5
8
330
0
100
AcDbSymbolTable
 70
     1
  0
VPORT
  5
29
330
8
100
AcDbSymbolTableRecord
100
AcDbViewportTableRecord
  2
*Active
 70
     0
 10
0.0
 20
0.0
 11
1.0
 21
1.0
 12
139.7
 22
107.95
 13
0.0
 23
0.0
 14
10.0
 24
10.0
 15
10.0
 25
10.0
 16
0.0
 26
0.0
 36
1.0
 17
0.0
 27
0.0
 37
0.0
 40
215.9
 41
1.2941176471
 42
50.0
 43
0.0
 44
0.0
 50
0.0
 51
0.0
 71
     0
 72
  2000
 73
     1
 74
     3
 75
     0
 76
     0
 77
     0
 78
     0
281
     0
 65
     1
110
0.0
120
0.0
130
0.0
111
1.0
121
0.0
131
0.0
112
0.0
122
1.0
132
0.0
 79
     0
146
0.0
  0
ENDTAB
  0
TABLE
  2
LTYPE
  5
5
330
0
100
AcDbSymbolTable
 70
     6
  0
LTYPE
  5
14
330
5
100
AcDbSymbolTableRecord
100
AcDbLinetypeTableRecord
  2
ByBlock
 70
     0
  3

 72
    65
 73
     0
 40
0.0
  0
LTYPE
  5
15
330
5
100
AcDbSymbolTableRecord
100
AcDbLinetypeTableRecord
  2
ByLayer
 70
     0
  3

 72
    65
 73
     0
 40
0.0
  0
LTYPE
  5
16
330
5
100
AcDbSymbolTableRecord
100
AcDbLinetypeTableRecord
  2
Continuous
 70
     0
  3
Solid line
 72
    65
 73
     0
 40
0.0
  0
LTYPE
  5
6E
330
5
100
AcDbSymbolTableRecord
100
AcDbLinetypeTableRecord
  2
HIDDEN
 70
     0
  3
Hidden __ __ __ __ __ __ __ __ __ __ __ __ __ __
 72
    65
 73
     2
 40
1.905
 49
1.27
 74
     0
 49
-0.635
 74
     0
  0
LTYPE
  5
6F
330
5
100
AcDbSymbolTableRecord
100
AcDbLinetypeTableRecord
  2
PHANTOM
 70
     0
  3
Phantom ______  __  __  ______  __  __  ______
 72
    65
 73
     6
 40
12.7
 49
6.35
 74
     0
 49
-1.27
 74
     0
 49
1.27
 74
     0
 49
-1.27
 74
     0
 49
1.27
 74
     0
 49
-1.27
 74
     0
  0
LTYPE
  5
70
330
5
100
AcDbSymbolTableRecord
100
AcDbLinetypeTableRecord
  2
CENTER
 70
     0
  3
Center ____ _ ____ _ ____ _ ____ _ ____ _ ____
 72
    65
 73
     4
 40
10.16
 49
6.35
 74
     0
 49
-1.27
 74
     0
 49
1.27
 74
     0
 49
-1.27
 74
     0
  0
LTYPE
  5
71
330
5
100
AcDbSymbolTableRecord
100
AcDbLinetypeTableRecord
  2
CENTERX2
 70
     0
  3
Center (2x) ________  __  ________  __  _____
 72
    65
 73
     4
 40
20.32
 49
12.7
 74
     0
 49
-2.54
 74
     0
 49
2.54
 74
     0
 49
-2.54
 74
     0
  0
LTYPE
  5
72
330
5
100
AcDbSymbolTableRecord
100
AcDbLinetypeTableRecord
  2
DOT2
 70
     0
  3
Dot (.5x) ........................................
 72
    65
 73
     2
 40
0.635
 49
0.0
 74
     0
 49
-0.635
 74
     0
  0
ENDTAB
  0
TABLE
  2
LAYER
  5
2
330
0
100
AcDbSymbolTable
 70
    17
  0
LAYER
  5
10
330
2
100
AcDbSymbolTableRecord
100
AcDbLayerTableRecord
  2
0
 70
     0
 62
     7
  6
Continuous
370
    -3
390
F
  0
LAYER
  5
73
330
2
100
AcDbSymbolTableRecord
100
AcDbLayerTableRecord
  2
FORMAT
 70
     0
 62
     7
  6
Continuous
370
    -3
390
F
  0
LAYER
  5
74
330
2
100
AcDbSymbolTableRecord
100
AcDbLayerTableRecord
  2
YARDIMCI_GEOMETRI
 70
     0
 62
    -6
  6
Continuous
290
     0
370
    -3
390
F
  0
LAYER
  5
75
330
2
100
AcDbSymbolTableRecord
100
AcDbLayerTableRecord
  2
SAYFA_CERCEVESI
 70
     0
 62
     7
  6
Continuous
370
    25
390
F
  0
LAYER
  5
76
330
2
100
AcDbSymbolTableRecord
100
AcDbLayerTableRecord
  2
ANTET
 70
     0
 62
     7
  6
Continuous
370
    -3
390
F
  0
LAYER
  5
77
330
2
100
AcDbSymbolTableRecord
100
AcDbLayerTableRecord
  2
OLCU
 70
     0
 62
   150
  6
Continuous
370
    -3
390
F
  0
LAYER
  5
78
330
2
100
AcDbSymbolTableRecord
100
AcDbLayerTableRecord
  2
METIN
 70
     0
 62
    96
  6
Continuous
370
    -3
390
F
  0
LAYER
  5
79
330
2
100
AcDbSymbolTableRecord
100
AcDbLayerTableRecord
  2
BALON
 70
     0
 62
     5
  6
Continuous
370
    -3
390
F
  0
LAYER
  5
7A
330
2
100
AcDbSymbolTableRecord
100
AcDbLayerTableRecord
  2
VURGU
 70
     0
 62
     7
  6
Continuous
370
    -3
390
F
  0
LAYER
  5
7B
330
2
100
AcDbSymbolTableRecord
100
AcDbLayerTableRecord
  2
SILIK
 70
     0
 62
     7
  6
Continuous
370
    -3
390
F
  0
LAYER
  5
7C
330
2
100
AcDbSymbolTableRecord
100
AcDbLayerTableRecord
  2
MODEL
 70
     0
 62
     7
  6
Continuous
370
    -3
390
F
  0
LAYER
  5
7D
330
2
100
AcDbSymbolTableRecord
100
AcDbLayerTableRecord
  2
DETAYLANDıRMA
 70
     0
 62
   190
  6
Continuous
370
    -3
390
F
  0
LAYER
  5
7E
330
2
100
AcDbSymbolTableRecord
100
AcDbLayerTableRecord
  2
TOLERANS
 70
     0
 62
   230
  6
Continuous
370
    -3
390
F
  0
LAYER
  5
7F
330
2
100
AcDbSymbolTableRecord
100
AcDbLayerTableRecord
  2
MERKEZ_CIZGILERI
 70
     0
 62
    30
  6
Continuous
370
    -3
390
F
  0
LAYER
  5
80
330
2
100
AcDbSymbolTableRecord
100
AcDbLayerTableRecord
  2
KESIT-DETAY_CIZGILERI
 70
     0
 62
     7
  6
Continuous
370
    -3
390
F
  0
LAYER
  5
81
330
2
100
AcDbSymbolTableRecord
100
AcDbLayerTableRecord
  2
\U+041E\U+0421\U+0415\U+0412\U+042B\U+0415
 70
     0
 62
     7
  6
Continuous
370
    -3
390
F
  0
LAYER
  5
82
330
2
100
AcDbSymbolTableRecord
100
AcDbLayerTableRecord
  2
\U+0412\U+041E\U+0414\U+042F\U+041D\U+042B\U+0415_\U+0417\U+041D\U+0410\U+041A\U+0418
 70
     0
 62
    11
  6
Continuous
370
    -3
390
F
  0
ENDTAB
  0
TABLE
  2
STYLE
  5
3
330
0
100
AcDbSymbolTable
 70
     1
  0
STYLE
  5
11
330
3
100
AcDbSymbolTableRecord
100
AcDbTextStyleTableRecord
  2
Standard
 70
     0
 40
0.0
 41
1.0
 50
0.0
 71
     0
 42
3.5
  3
txt
  4

  0
ENDTAB
  0
TABLE
  2
VIEW
  5
6
330
0
100
AcDbSymbolTable
 70
     0
  0
ENDTAB
  0
TABLE
  2
UCS
  5
7
330
0
100
AcDbSymbolTable
 70
     0
  0
ENDTAB
  0
TABLE
  2
APPID
  5
9
330
0
100
AcDbSymbolTable
 70
     1
  0
APPID
  5
12
330
9
100
AcDbSymbolTableRecord
100
AcDbRegAppTableRecord
  2
ACAD
 70
     0
  0
ENDTAB
  0
TABLE
  2
DIMSTYLE
  5
A
330
0
100
AcDbSymbolTable
 70
     1
100
AcDbDimStyleTable
  0
DIMSTYLE
105
27
330
A
100
AcDbSymbolTableRecord
100
AcDbDimStyleTableRecord
  2
ISO-25
 70
     0
 41
2.5
 42
0.625
 43
3.75
 44
1.25
 73
     0
 74
     0
 77
     1
 78
     8
140
2.5
141
2.5
143
0.0393700787
147
0.625
171
     3
172
     1
178
     0
271
     2
272
     2
274
     3
278
    44
283
     0
284
     8
340
11
  0
ENDTAB
  0
TABLE
  2
BLOCK_RECORD
  5
1
330
0
100
AcDbSymbolTable
 70
     2
  0
BLOCK_RECORD
  5
1F
330
1
100
AcDbSymbolTableRecord
100
AcDbBlockTableRecord
  2
*Model_Space
340
22
  0
BLOCK_RECORD
  5
1B
330
1
100
AcDbSymbolTableRecord
100
AcDbBlockTableRecord
  2
*Paper_Space
340
1E
  0
BLOCK_RECORD
  5
23
330
1
100
AcDbSymbolTableRecord
100
AcDbBlockTableRecord
  2
*Paper_Space0
340
26
  0
BLOCK_RECORD
  5
88
330
1
100
AcDbSymbolTableRecord
100
AcDbBlockTableRecord
  2
SW_CENTERMARKSYMBOL_0
340
0
102
{BLKREFS
331
93
102
}
  0
ENDTAB
  0
ENDSEC
  0
SECTION
  2
BLOCKS
  0
BLOCK
  5
20
330
1F
100
AcDbEntity
  8
0
100
AcDbBlockBegin
  2
*Model_Space
 70
     0
 10
0.0
 20
0.0
 30
0.0
  3
*Model_Space
  1

  0
ENDBLK
  5
21
330
1F
100
AcDbEntity
  8
0
100
AcDbBlockEnd
  0
BLOCK
  5
1C
330
1B
100
AcDbEntity
 67
     1
  8
0
100
AcDbBlockBegin
  2
*Paper_Space
 70
     0
 10
0.0
 20
0.0
 30
0.0
  3
*Paper_Space
  1

  0
ENDBLK
  5
1D
330
1B
100
AcDbEntity
 67
     1
  8
0
100
AcDbBlockEnd
  0
BLOCK
  5
24
330
23
100
AcDbEntity
  8
0
100
AcDbBlockBegin
  2
*Paper_Space0
 70
     0
 10
0.0
 20
0.0
 30
0.0
  3
*Paper_Space0
  1

  0
ENDBLK
  5
25
330
23
100
AcDbEntity
  8
0
100
AcDbBlockEnd
  0
BLOCK
  5
89
330
88
100
AcDbEntity
  8
0
100
AcDbBlockBegin
  2
SW_CENTERMARKSYMBOL_0
 70
     0
 10
0.0
 20
0.0
 30
0.0
  3
SW_CENTERMARKSYMBOL_0
  1

  0
LINE
  5
8B
330
88
100
AcDbEntity
  8
FORMAT
 62
     0
100
AcDbLine
 10
0.0
 20
0.0
 30
0.0
 11
0.0
 21
2.5
 31
0.0
  0
LINE
  5
8C
330
88
100
AcDbEntity
  8
FORMAT
 62
     0
100
AcDbLine
 10
0.0
 20
0.0
 30
0.0
 11
-2.5
 21
0.0
 31
0.0
  0
LINE
  5
8D
330
88
100
AcDbEntity
  8
FORMAT
 62
     0
100
AcDbLine
 10
0.0
 20
0.0
 30
0.0
 11
0.0
 21
-2.5
 31
0.0
  0
LINE
  5
8E
330
88
100
AcDbEntity
  8
FORMAT
 62
     0
100
AcDbLine
 10
0.0
 20
0.0
 30
0.0
 11
2.5
 21
0.0
 31
0.0
  0
LINE
  5
8F
330
88
100
AcDbEntity
  8
FORMAT
 62
     0
100
AcDbLine
 10
0.0
 20
5.0
 30
0.0
 11
0.0
 21
160.0
 31
0.0
  0
LINE
  5
90
330
88
100
AcDbEntity
  8
FORMAT
 62
     0
100
AcDbLine
 10
-5.0
 20
0.0
 30
0.0
 11
-160.0
 21
0.0
 31
0.0
  0
LINE
  5
91
330
88
100
AcDbEntity
  8
FORMAT
 62
     0
100
AcDbLine
 10
0.0
 20
-5.0
 30
0.0
 11
0.0
 21
-160.0
 31
0.0
  0
LINE
  5
92
330
88
100
AcDbEntity
  8
FORMAT
 62
     0
100
AcDbLine
 10
5.0
 20
0.0
 30
0.0
 11
160.0
 21
0.0
 31
0.0
  0
ENDBLK
  5
8A
330
88
100
AcDbEntity
  8
0
100
AcDbBlockEnd
  0
ENDSEC
  0
SECTION
  2
ENTITIES
  0
CIRCLE
  5
83
330
1F
100
AcDbEntity
  8
0
  6
Continuous
 62
     7
370
    25
100
AcDbCircle
 10
139.395004093
 20
107.5851680021
 30
0.0
 40
157.5
  0
CIRCLE
  5
84
330
1F
100
AcDbEntity
  8
0
  6
Continuous
 62
     7
370
    25
100
AcDbCircle
 10
139.395004093
 20
107.5851680021
 30
0.0
 40
128.9
  0
CIRCLE
  5
85
330
1F
100
AcDbEntity
  8
0
  6
Continuous
 62
     7
370
    25
100
AcDbCircle
 10
139.395004093
 20
107.5851680021
 30
0.0
 40
128.7329929437855
  0
CIRCLE
  5
86
330
1F
100
AcDbEntity
  8
0
  6
Continuous
 62
     7
370
    25
100
AcDbCircle
 10
139.395004093
 20
107.5851680021
 30
0.0
 40
114.7670070562145
  0
CIRCLE
  5
87
330
1F
100
AcDbEntity
  8
0
  6
Continuous
 62
     7
370
    25
100
AcDbCircle
 10
139.395004093
 20
107.5851680021
 30
0.0
 40
114.6
  0
INSERT
  5
93
330
1F
100
AcDbEntity
  8
FORMAT
 62
     7
100
AcDbBlockReference
  2
SW_CENTERMARKSYMBOL_0
 10
139.395004093
 20
107.5851680021
 30
0.0
  0
ARC
  5
94
330
1F
100
AcDbEntity
  8
0
  6
Continuous
 62
     7
370
    25
100
AcDbCircle
 10
-328.7778844119
 20
263.0851680021
 30
0.0
 40
2.0
100
AcDbArc
 50
75.149661701
 51
90.0
  0
ARC
  5
95
330
1F
100
AcDbEntity
  8
0
  6
Continuous
 62
     7
370
    25
100
AcDbCircle
 10
-328.7778844119
 20
-47.9148319979
 30
0.0
 40
2.0
100
AcDbArc
 50
270.0
 51
284.850338299
  0
LINE
  5
96
330
1F
100
AcDbEntity
  8
0
  6
Continuous
 62
     7
370
    25
100
AcDbLine
 10
-328.7778844163
 20
265.08516681
 30
0.0
 11
-478.5172355399
 21
265.08516681
 31
0.0
  0
LINE
  5
97
330
1F
100
AcDbEntity
  8
0
  6
Continuous
 62
     7
370
    25
100
AcDbLine
 10
-478.5172355399
 20
-49.9148308058
 30
0.0
 11
-328.7778844163
 21
-49.9148308058
 31
0.0
  0
LINE
  5
98
330
1F
100
AcDbEntity
  8
0
  6
Continuous
 62
     7
370
    25
100
AcDbLine
 10
-328.2652937844
 20
-49.8480289002
 30
0.0
 11
-262.7691787705
 21
-32.4816344996
 31
0.0
  0
LINE
  5
99
330
1F
100
AcDbEntity
  8
0
  6
Continuous
 62
     7
370
    25
100
AcDbLine
 10
-262.7691787705
 20
247.6519705038
 30
0.0
 11
-328.2652937844
 21
265.0183649044
 31
0.0
  0
ARC
  5
9A
330
1F
100
AcDbEntity
  8
0
  6
Continuous
 62
     7
370
    25
100
AcDbCircle
 10
-262.2565882373
 20
249.5851680021
 30
0.0
 40
2.000000000000028
100
AcDbArc
 50
255.149661701
 51
270.0
  0
ARC
  5
9B
330
1F
100
AcDbEntity
  8
0
  6
Continuous
 62
     7
370
    25
100
AcDbCircle
 10
-262.2565882373
 20
-34.4148319979
 30
0.0
 40
2.000000000000028
100
AcDbArc
 50
90.0
 51
104.850338299
  0
LINE
  5
9C
330
1F
100
AcDbEntity
  8
0
  6
Continuous
 62
     7
370
    25
100
AcDbLine
 10
-123.5172313675
 20
247.5851685982
 30
0.0
 11
-262.2565900013
 21
247.5851685982
 31
0.0
  0
LINE
  5
9D
330
1F
100
AcDbEntity
  8
0
  6
Continuous
 62
     7
370
    25
100
AcDbLine
 10
-262.2565900013
 20
-32.4148325939
 30
0.0
 11
-123.5172313675
 21
-32.4148325939
 31
0.0
  0
LINE
  5
9E
330
1F
100
AcDbEntity
  8
0
  6
Continuous
 62
     7
370
    25
100
AcDbLine
 10
-478.5172355399
 20
265.08516681
 30
0.0
 11
-478.5172355399
 21
-49.9148308058
 31
0.0
  0
LINE
  5
9F
330
1F
100
AcDbEntity
  8
0
  6
Continuous
 62
     7
370
    25
100
AcDbLine
 10
-123.5172313675
 20
247.5851685982
 30
0.0
 11
-123.5172313675
 21
-32.4148325939
 31
0.0
  0
LINE
  5
A0
330
1F
100
AcDbEntity
  8
0
  6
Continuous
 62
     1
370
    25
100
AcDbLine
 10
-328.2652937844
 20
265.0183649044
 30
0.0
 11
-328.2652937844
 21
-49.8480289002
 31
0.0
  0
LINE
  5
A1
330
1F
100
AcDbEntity
  8
0
  6
Continuous
 62
     1
370
    25
100
AcDbLine
 10
-328.7778844163
 20
265.08516681
 30
0.0
 11
-328.7778844163
 21
-49.9148308058
 31
0.0
  0
LINE
  5
A2
330
1F
100
AcDbEntity
  8
0
  6
Continuous
 62
     1
370
    25
100
AcDbLine
 10
-262.7691787705
 20
247.6519705038
 30
0.0
 11
-262.7691787705
 21
-32.4816344996
 31
0.0
  0
LINE
  5
A3
330
1F
100
AcDbEntity
  8
0
  6
Continuous
 62
     1
370
    25
100
AcDbLine
 10
-262.2565900013
 20
247.5851685982
 30
0.0
 11
-262.2565900013
 21
-32.4148325939
 31
0.0
  0
ARC
  5
A4
330
1F
100
AcDbEntity
  8
0
  6
Continuous
 62
     7
370
    25
100
AcDbCircle
 10
641.7153833292
 20
-47.9148319979
 30
0.0
 40
2.0
100
AcDbArc
 50
255.149661701
 51
270.0
  0
ARC
  5
A5
330
1F
100
AcDbEntity
  8
0
  6
Continuous
 62
     7
370
    25
100
AcDbCircle
 10
641.7153833292
 20
263.0851680021
 30
0.0
 40
2.0
100
AcDbArc
 50
90.0
 51
104.850338299
  0
LINE
  5
A6
330
1F
100
AcDbEntity
  8
0
  6
Continuous
 62
     7
370
    25
100
AcDbLine
 10
641.7153833335
 20
-49.9148308058
 30
0.0
 11
791.4547344571
 21
-49.9148308058
 31
0.0
  0
LINE
  5
A7
330
1F
100
AcDbEntity
  8
0
  6
Continuous
 62
     7
370
    25
100
AcDbLine
 10
791.4547344571
 20
265.08516681
 30
0.0
 11
641.7153833335
 21
265.08516681
 31
0.0
  0
LINE
  5
A8
330
1F
100
AcDbEntity
  8
0
  6
Continuous
 62
     7
370
    25
100
AcDbLine
 10
641.2027927017
 20
265.0183649044
 30
0.0
 11
575.7066776877
 21
247.6519705038
 31
0.0
  0
LINE
  5
A9
330
1F
100
AcDbEntity
  8
0
  6
Continuous
 62
     7
370
    25
100
AcDbLine
 10
575.7066776877
 20
-32.4816344996
 30
0.0
 11
641.2027927017
 21
-49.8480289002
 31
0.0
  0
ARC
  5
AA
330
1F
100
AcDbEntity
  8
0
  6
Continuous
 62
     7
370
    25
100
AcDbCircle
 10
575.1940871545
 20
-34.4148319979
 30
0.0
 40
2.000000000000028
100
AcDbArc
 50
75.149661701
 51
90.0
  0
ARC
  5
AB
330
1F
100
AcDbEntity
  8
0
  6
Continuous
 62
     7
370
    25
100
AcDbCircle
 10
575.1940871545
 20
249.5851680021
 30
0.0
 40
2.000000000000028
100
AcDbArc
 50
270.0
 51
284.850338299
  0
LINE
  5
AC
330
1F
100
AcDbEntity
  8
0
  6
Continuous
 62
     7
370
    25
100
AcDbLine
 10
436.4547302848
 20
-32.4148325939
 30
0.0
 11
575.1940889185
 21
-32.4148325939
 31
0.0
  0
LINE
  5
AD
330
1F
100
AcDbEntity
  8
0
  6
Continuous
 62
     7
370
    25
100
AcDbLine
 10
575.1940889185
 20
247.5851685982
 30
0.0
 11
436.4547302848
 21
247.5851685982
 31
0.0
  0
LINE
  5
AE
330
1F
100
AcDbEntity
  8
0
  6
Continuous
 62
     7
370
    25
100
AcDbLine
 10
791.4547344571
 20
107.5851680021
 30
0.0
 11
791.4547344571
 21
265.08516681
 31
0.0
  0
LINE
  5
AF
330
1F
100
AcDbEntity
  8
0
  6
Continuous
 62
     7
370
    25
100
AcDbLine
 10
791.4547344571
 20
-49.9148308058
 30
0.0
 11
791.4547344571
 21
107.5851680021
 31
0.0
  0
LINE
  5
B0
330
1F
100
AcDbEntity
  8
0
  6
Continuous
 62
     7
370
    25
100
AcDbLine
 10
436.4547302848
 20
107.5851680021
 30
0.0
 11
436.4547302848
 21
247.5851685982
 31
0.0
  0
LINE
  5
B1
330
1F
100
AcDbEntity
  8
0
  6
Continuous
 62
     7
370
    25
100
AcDbLine
 10
436.4547302848
 20
-32.4148325939
 30
0.0
 11
436.4547302848
 21
107.5851680021
 31
0.0
  0
LINE
  5
B2
330
1F
100
AcDbEntity
  8
0
  6
Continuous
 62
     1
370
    25
100
AcDbLine
 10
641.2027927017
 20
107.5851680021
 30
0.0
 11
641.2027927017
 21
265.0183649044
 31
0.0
  0
LINE
  5
B3
330
1F
100
AcDbEntity
  8
0
  6
Continuous
 62
     1
370
    25
100
AcDbLine
 10
641.2027927017
 20
-49.8480289002
 30
0.0
 11
641.2027927017
 21
107.5851680021
 31
0.0
  0
LINE
  5
B4
330
1F
100
AcDbEntity
  8
0
  6
Continuous
 62
     1
370
    25
100
AcDbLine
 10
641.7153833335
 20
107.5851680021
 30
0.0
 11
641.7153833335
 21
265.08516681
 31
0.0
  0
LINE
  5
B5
330
1F
100
AcDbEntity
  8
0
  6
Continuous
 62
     1
370
    25
100
AcDbLine
 10
641.7153833335
 20
-49.9148308058
 30
0.0
 11
641.7153833335
 21
107.5851680021
 31
0.0
  0
LINE
  5
B6
330
1F
100
AcDbEntity
  8
0
  6
Continuous
 62
     1
370
    25
100
AcDbLine
 10
575.7066776877
 20
107.5851680021
 30
0.0
 11
575.7066776877
 21
247.6519705038
 31
0.0
  0
LINE
  5
B7
330
1F
100
AcDbEntity
  8
0
  6
Continuous
 62
     1
370
    25
100
AcDbLine
 10
575.7066776877
 20
-32.4816344996
 30
0.0
 11
575.7066776877
 21
107.5851680021
 31
0.0
  0
LINE
  5
B8
330
1F
100
AcDbEntity
  8
0
  6
Continuous
 62
     1
370
    25
100
AcDbLine
 10
575.1940889185
 20
107.5851680021
 30
0.0
 11
575.1940889185
 21
247.5851685982
 31
0.0
  0
LINE
  5
B9
330
1F
100
AcDbEntity
  8
0
  6
Continuous
 62
     1
370
    25
100
AcDbLine
 10
575.1940889185
 20
-32.4148325939
 30
0.0
 11
575.1940889185
 21
107.5851680021
 31
0.0
  0
ARC
  5
BA
330
1F
100
AcDbEntity
  8
0
  6
Continuous
 62
     7
370
    25
100
AcDbCircle
 10
294.895004093
 20
506.5011354836
 30
0.0
 40
2.0
100
AcDbArc
 50
345.149661701
 51
0.0
  0
ARC
  5
BB
330
1F
100
AcDbEntity
  8
0
  6
Continuous
 62
     7
370
    25
100
AcDbCircle
 10
-16.104995907
 20
506.5011354836
 30
0.0
 40
2.000000000000004
100
AcDbArc
 50
180.0
 51
194.850338299
  0
LINE
  5
BC
330
1F
100
AcDbEntity
  8
0
  6
Continuous
 62
     7
370
    25
100
AcDbLine
 10
296.895002901
 20
506.501135488
 30
0.0
 11
296.895002901
 21
656.2404866115
 31
0.0
  0
LINE
  5
BD
330
1F
100
AcDbEntity
  8
0
  6
Continuous
 62
     7
370
    25
100
AcDbLine
 10
-18.1049947149
 20
656.2404866115
 30
0.0
 11
-18.1049947149
 21
506.501135488
 31
0.0
  0
LINE
  5
BE
330
1F
100
AcDbEntity
  8
0
  6
Continuous
 62
     7
370
    25
100
AcDbLine
 10
-18.0381928092
 20
505.9885448561
 30
0.0
 11
-0.6717984086
 21
440.4924298422
 31
0.0
  0
LINE
  5
BF
330
1F
100
AcDbEntity
  8
0
  6
Continuous
 62
     7
370
    25
100
AcDbLine
 10
279.4618065947
 20
440.4924298422
 30
0.0
 11
296.8282009953
 21
505.9885448561
 31
0.0
  0
ARC
  5
C0
330
1F
100
AcDbEntity
  8
0
  6
Continuous
 62
     7
370
    25
100
AcDbCircle
 10
281.395004093
 20
439.9798393089
 30
0.0
 40
2.00000000000006
100
AcDbArc
 50
165.149661701
 51
180.0
  0
ARC
  5
C1
330
1F
100
AcDbEntity
  8
0
  6
Continuous
 62
     7
370
    25
100
AcDbCircle
 10
-2.604995907
 20
439.9798393089
 30
0.0
 40
2.00000000000003
100
AcDbArc
 50
0.0
 51
14.850338299
  0
LINE
  5
C2
330
1F
100
AcDbEntity
  8
0
  6
Continuous
 62
     7
370
    25
100
AcDbLine
 10
279.3950046891
 20
301.2404824392
 30
0.0
 11
279.3950046891
 21
439.979841073
 31
0.0
  0
LINE
  5
C3
330
1F
100
AcDbEntity
  8
0
  6
Continuous
 62
     7
370
    25
100
AcDbLine
 10
-0.604996503
 20
439.979841073
 30
0.0
 11
-0.604996503
 21
301.2404824392
 31
0.0
  0
LINE
  5
C4
330
1F
100
AcDbEntity
  8
0
  6
Continuous
 62
     7
370
    25
100
AcDbLine
 10
296.895002901
 20
656.2404866115
 30
0.0
 11
-18.1049947149
 21
656.2404866115
 31
0.0
  0
LINE
  5
C5
330
1F
100
AcDbEntity
  8
0
  6
Continuous
 62
     7
370
    25
100
AcDbLine
 10
279.3950046891
 20
301.2404824392
 30
0.0
 11
-0.604996503
 21
301.2404824392
 31
0.0
  0
LINE
  5
C6
330
1F
100
AcDbEntity
  8
0
  6
Continuous
 62
     1
370
    25
100
AcDbLine
 10
296.8282009953
 20
505.9885448561
 30
0.0
 11
-18.0381928092
 21
505.9885448561
 31
0.0
  0
LINE
  5
C7
330
1F
100
AcDbEntity
  8
0
  6
Continuous
 62
     1
370
    25
100
AcDbLine
 10
296.895002901
 20
506.501135488
 30
0.0
 11
-18.1049947149
 21
506.501135488
 31
0.0
  0
LINE
  5
C8
330
1F
100
AcDbEntity
  8
0
  6
Continuous
 62
     1
370
    25
100
AcDbLine
 10
279.4618065947
 20
440.4924298422
 30
0.0
 11
-0.6717984086
 21
440.4924298422
 31
0.0
  0
LINE
  5
C9
330
1F
100
AcDbEntity
  8
0
  6
Continuous
 62
     1
370
    25
100
AcDbLine
 10
279.3950046891
 20
439.979841073
 30
0.0
 11
-0.604996503
 21
439.979841073
 31
0.0
  0
ARC
  5
CA
330
1F
100
AcDbEntity
  8
0
  6
Continuous
 62
     7
370
    25
100
AcDbCircle
 10
-16.104995907
 20
-338.6726291059
 30
0.0
 40
2.000000000000004
100
AcDbArc
 50
165.149661701
 51
180.0
  0
ARC
  5
CB
330
1F
100
AcDbEntity
  8
0
  6
Continuous
 62
     7
370
    25
100
AcDbCircle
 10
294.895004093
 20
-338.6726291059
 30
0.0
 40
2.0
100
AcDbArc
 50
0.0
 51
14.850338299
  0
LINE
  5
CC
330
1F
100
AcDbEntity
  8
0
  6
Continuous
 62
     7
370
    25
100
AcDbLine
 10
-18.1049947149
 20
-338.6726291103
 30
0.0
 11
-18.1049947149
 21
-488.4119802338
 31
0.0
  0
LINE
  5
CD
330
1F
100
AcDbEntity
  8
0
  6
Continuous
 62
     7
370
    25
100
AcDbLine
 10
296.895002901
 20
-488.4119802338
 30
0.0
 11
296.895002901
 21
-338.6726291103
 31
0.0
  0
LINE
  5
CE
330
1F
100
AcDbEntity
  8
0
  6
Continuous
 62
     7
370
    25
100
AcDbLine
 10
296.8282009953
 20
-338.1600384784
 30
0.0
 11
279.4618065947
 21
-272.6639234645
 31
0.0
  0
LINE
  5
CF
330
1F
100
AcDbEntity
  8
0
  6
Continuous
 62
     7
370
    25
100
AcDbLine
 10
-0.6717984086
 20
-272.6639234645
 30
0.0
 11
-18.0381928092
 21
-338.1600384784
 31
0.0
  0
ARC
  5
D0
330
1F
100
AcDbEntity
  8
0
  6
Continuous
 62
     7
370
    25
100
AcDbCircle
 10
-2.604995907
 20
-272.1513329312
 30
0.0
 40
2.00000000000003
100
AcDbArc
 50
345.149661701
 51
0.0
  0
ARC
  5
D1
330
1F
100
AcDbEntity
  8
0
  6
Continuous
 62
     7
370
    25
100
AcDbCircle
 10
281.395004093
 20
-272.1513329312
 30
0.0
 40
2.000000000000074
100
AcDbArc
 50
180.0
 51
194.850338299
  0
LINE
  5
D2
330
1F
100
AcDbEntity
  8
0
  6
Continuous
 62
     7
370
    25
100
AcDbLine
 10
-0.604996503
 20
-133.4119760615
 30
0.0
 11
-0.604996503
 21
-272.1513346953
 31
0.0
  0
LINE
  5
D3
330
1F
100
AcDbEntity
  8
0
  6
Continuous
 62
     7
370
    25
100
AcDbLine
 10
279.3950046891
 20
-272.1513346953
 30
0.0
 11
279.3950046891
 21
-133.4119760615
 31
0.0
  0
LINE
  5
D4
330
1F
100
AcDbEntity
  8
0
  6
Continuous
 62
     7
370
    25
100
AcDbLine
 10
-18.1049947149
 20
-488.4119802338
 30
0.0
 11
296.895002901
 21
-488.4119802338
 31
0.0
  0
LINE
  5
D5
330
1F
100
AcDbEntity
  8
0
  6
Continuous
 62
     7
370
    25
100
AcDbLine
 10
-0.604996503
 20
-133.4119760615
 30
0.0
 11
279.3950046891
 21
-133.4119760615
 31
0.0
  0
LINE
  5
D6
330
1F
100
AcDbEntity
  8
0
  6
Continuous
 62
     1
370
    25
100
AcDbLine
 10
-18.0381928092
 20
-338.1600384784
 30
0.0
 11
296.8282009953
 21
-338.1600384784
 31
0.0
  0
LINE
  5
D7
330
1F
100
AcDbEntity
  8
0
  6
Continuous
 62
     1
370
    25
100
AcDbLine
 10
-18.1049947149
 20
-338.6726291103
 30
0.0
 11
296.895002901
 21
-338.6726291103
 31
0.0
  0
LINE
  5
D8
330
1F
100
AcDbEntity
  8
0
  6
Continuous
 62
     1
370
    25
100
AcDbLine
 10
-0.6717984086
 20
-272.6639234645
 30
0.0
 11
279.4618065947
 21
-272.6639234645
 31
0.0
  0
LINE
  5
D9
330
1F
100
AcDbEntity
  8
0
  6
Continuous
 62
     1
370
    25
100
AcDbLine
 10
-0.604996503
 20
-272.1513346953
 30
0.0
 11
279.3950046891
 21
-272.1513346953
 31
0.0
  0
LINE
  5
DA
330
1F
100
AcDbEntity
  8
0
  6
Continuous
 62
     7
370
    25
100
AcDbLine
 10
677.4405321945
 20
-172.6459517971
 30
0.0
 11
571.5588216045
 21
-111.5217413389
 31
0.0
  0
LINE
  5
DB
330
1F
100
AcDbEntity
  8
0
  6
Continuous
 62
     7
370
    25
100
AcDbLine
 10
414.0716219798
 20
-384.3271386273
 30
0.0
 11
519.9533325698
 21
-445.4513490854
 31
0.0
  0
LINE
  5
DC
330
1F
100
AcDbEntity
  8
0
  6
Continuous
 62
     7
370
    25
100
AcDbLine
 10
536.5062373192
 20
-451.7058004747
 30
0.0
 11
589.7191979365
 21
-462.7282081075
 31
0.0
  0
LINE
  5
DD
330
1F
100
AcDbEntity
  8
0
  6
Continuous
 62
     7
370
    25
100
AcDbLine
 10
727.2905259634
 20
-224.4218597635
 30
0.0
 11
691.1345529891
 21
-183.852676884
 31
0.0
  0
LINE
  5
DE
330
1F
100
AcDbEntity
  8
0
  6
Continuous
 62
     7
370
    25
100
AcDbLine
 10
813.8324412518
 20
-271.5900413372
 30
0.0
 11
722.1665518316
 21
-218.6724497575
 31
0.0
  0
LINE
  5
DF
330
1F
100
AcDbEntity
  8
0
  6
Continuous
 62
     7
370
    25
100
AcDbLine
 10
582.1779334552
 20
-461.1661301527
 30
0.0
 11
673.8438228755
 21
-514.0837217324
 31
0.0
  0
LWPOLYLINE
  5
E0
330
1F
100
AcDbEntity
  8
0
  6
Continuous
 62
     7
370
    25
100
AcDbPolyline
 90
      134
 70
   128
 43
0.0
 10
381.4459045982
 20
-312.2165783025
 10
381.5701535076
 20
-306.0715456134
 10
381.9426473548
 20
-299.7967556208
 10
382.562532666
 20
-293.4062243362
 10
383.4284291319
 20
-286.9142065071
 10
384.538419071
 20
-280.3351826879
 10
385.8900158192
 20
-273.6838417463
 10
387.4801953401
 20
-266.9750230717
 10
389.3054278351
 20
-260.2236922423
 10
391.3616355967
 20
-253.4449151664
 10
393.6442140816
 20
-246.6538246235
 10
396.1480951314
 20
-239.8655594333
 10
398.8676626784
 20
-233.0952857406
 10
401.7968791866
 20
-226.3580966465
 10
404.9291802844
 20
-219.6690365328
 10
408.2575959366
 20
-213.0430189436
 10
411.774692493
 20
-206.4948417895
 10
415.4726201028
 20
-200.0391052212
 10
419.343133789
 20
-193.6902237997
 10
423.3775881791
 20
-187.4623565328
 10
427.5669849211
 20
-181.3694099216
 10
431.9019779513
 20
-175.4249679981
 10
436.3728945679
 20
-169.6422923275
 10
440.9697512362
 20
-164.0343128841
 10
445.6822957353
 20
-158.613506381
 10
450.5000150607
 20
-153.3920012148
 10
455.4121538635
 20
-148.3814329795
 10
460.4077565972
 20
-143.5929809725
 10
465.4756701521
 20
-139.0373301718
 10
470.6045912702
 20
-134.7246560313
 10
475.7830704967
 20
-130.6645735298
 10
480.9995569609
 20
-126.8661356547
 10
486.242407596
 20
-123.3378402467
 10
491.4999251697
 20
-120.0875350408
 10
496.7603778763
 20
-117.122491528
 10
502.0120269953
 20
-114.4493159837
 10
507.2431548795
 20
-112.0739698127
 10
512.4420884985
 20
-110.0017681257
 10
517.5972262734
 20
-108.2373155775
 10
522.697066066
 20
-106.7845632146
 10
527.7302269101
 20
-105.646759427
 10
532.685481939
 20
-104.8264187724
 10
537.5517676047
 20
-104.3253896584
 10
542.3182284598
 20
-104.1447919888
 10
546.9742329617
 20
-104.2850080394
 10
551.5093813754
 20
-104.7457630675
 10
555.9135637258
 20
-105.5259823509
 10
560.1769492603
 20
-106.6239676141
 10
564.290023328
 20
-108.0372358133
 10
568.2436084526
 20
-109.7626529803
 10
572.0288854059
 20
-111.7963612198
 10
575.637403745
 20
-114.13382738
 10
579.0611134218
 20
-116.7698308883
 10
582.2923805882
 20
-119.6984911292
 10
585.3239823282
 20
-122.9132765698
 10
588.1491593408
 20
-126.4070108479
 10
590.7616106724
 20
-130.1718940649
 10
593.1555095209
 20
-134.1995301637
 10
595.3255032368
 20
-138.4809330125
 10
597.2667660058
 20
-143.0065416191
 10
598.9749461658
 20
-147.7662718372
 10
600.4462505004
 20
-152.7494859559
 10
601.6773915556
 20
-157.9450748248
 10
602.6656087126
 20
-163.3414441678
 10
603.4087103354
 20
-168.9265510887
 10
603.9050316235
 20
-174.6879352468
 10
604.1534767588
 20
-180.6127334998
 10
604.1534767588
 20
-186.6877335119
 10
603.9050316235
 20
-192.8993804123
 10
603.4087103354
 20
-199.2338049321
 10
602.6656087126
 20
-205.6768787244
 10
601.6773915556
 20
-212.2142193106
 10
600.4462505004
 20
-218.8312533855
 10
598.9749461658
 20
-225.5131993304
 10
597.2667660058
 20
-232.2451523813
 10
595.3255032368
 20
-239.0120952728
 10
593.1555095209
 20
-245.7989195366
 10
590.7616106724
 20
-252.5904924139
 10
588.1491593408
 20
-259.3716477351
 10
585.3239823282
 20
-266.127261961
 10
582.2923805882
 20
-272.8422602664
 10
579.0611134218
 20
-279.5016621666
 10
575.637403745
 20
-286.0905967271
 10
572.0288854059
 20
-292.5943694793
 10
568.2436084526
 20
-298.9984654629
 10
564.290023328
 20
-305.2885948521
 10
560.1769492603
 20
-311.4507172877
 10
555.9135637258
 20
-317.4711027128
 10
551.5093813754
 20
-323.3362827015
 10
546.9742329617
 20
-329.0332086331
 10
542.3182284598
 20
-334.5491330563
 10
537.5517676047
 20
-339.8717739503
 10
532.685481939
 20
-344.989238673
 10
527.7302269101
 20
-349.8901136952
 10
522.697066066
 20
-354.563473724
 10
517.5972262734
 20
-358.9988710529
 10
512.4420884985
 20
-363.1864138879
 10
507.2431548795
 20
-367.1167731892
 10
502.0120269953
 20
-370.7811587141
 10
496.7603778763
 20
-374.171408179
 10
491.4999251697
 20
-377.2799540812
 10
486.242407596
 20
-380.0998494581
 10
480.9995569609
 20
-382.6248205459
 10
475.7830704967
 20
-384.8492097429
 10
470.6045912702
 20
-386.7680720909
 10
465.4756701521
 20
-388.3771242258
 10
460.4077565972
 20
-389.6727618674
 10
455.4121538635
 20
-390.6521100057
 10
450.5000150607
 20
-391.3129765122
 10
445.6822957353
 20
-391.6538916797
 10
440.9697512362
 20
-391.6740732406
 10
436.3728945679
 20
-391.3735115349
 10
431.9019779513
 20
-390.7528463134
 10
427.5669849211
 20
-389.8134808064
 10
423.3775881791
 20
-388.5575087156
 10
419.343133789
 20
-386.9877233375
 10
415.4726201028
 20
-385.107641897
 10
411.774692493
 20
-382.9214416674
 10
408.2575959366
 20
-380.4340177616
 10
404.9291802844
 20
-377.650907086
 10
401.7968791866
 20
-374.5783248408
 10
398.8676626784
 20
-371.2231371392
 10
396.1480951314
 20
-367.5928093007
 10
393.6442140816
 20
-363.6954636355
 10
391.3616355967
 20
-359.5397821151
 10
389.3054278351
 20
-355.1350519877
 10
387.4801953401
 20
-350.4910897405
 10
385.8900158192
 20
-345.6182532607
 10
384.538419071
 20
-340.527432708
 10
383.4284291319
 20
-335.2299759935
 10
382.562532666
 20
-329.7377009438
 10
381.9426473548
 20
-324.0628740054
 10
381.5701535076
 20
-318.2181562544
 10
381.4459045982
 20
-312.2165783025
  0
LWPOLYLINE
  5
E1
330
1F
100
AcDbEntity
  8
0
  6
Continuous
 62
     7
370
    25
100
AcDbPolyline
 90
      121
 70
   128
 43
0.0
 10
401.6691531622
 20
-300.5419454081
 10
401.7940658845
 20
-294.9613648413
 10
402.1684668765
 20
-289.2518559923
 10
402.7913130038
 20
-283.4290789755
 10
403.6609183924
 20
-277.5089797791
 10
404.7748859404
 20
-271.507794061
 10
406.1301652694
 20
-265.4419673053
 10
407.7230421886
 20
-259.3281259243
 10
409.5491492308
 20
-253.1830301101
 10
411.6034814576
 20
-247.0235221254
 10
413.8804122648
 20
-240.8664776346
 10
416.3736986505
 20
-234.7287813699
 10
419.0765075569
 20
-228.6272541294
 10
421.981426407
 20
-222.5786223593
 10
425.0804947147
 20
-216.599454278
 10
428.3652198901
 20
-210.7061507523
 10
431.8265983127
 20
-204.9148601274
 10
435.4551469415
 20
-199.2414538949
 10
439.2409085837
 20
-193.7014871494
 10
443.1735151144
 20
-188.3101377572
 10
447.2421874772
 20
-183.0821881057
 10
451.4357751964
 20
-178.0319657902
 10
455.7427774508
 20
-173.1733192819
 10
460.1513931228
 20
-168.5195586157
 10
464.6495392377
 20
-164.0834386626
 10
469.2248852082
 20
-159.8771211089
 10
473.8648897127
 20
-155.9121349162
 10
478.5568362567
 20
-152.1993436246
 10
483.287863466
 20
-148.7489400323
 10
488.0450052577
 20
-145.5703560847
 10
492.8152217922
 20
-142.6723240942
 10
497.5854383266
 20
-140.0627813061
 10
502.3425801183
 20
-137.7488862517
 10
507.0736073276
 20
-135.736962097
 10
511.7655538716
 20
-134.0325472174
 10
516.4055583761
 20
-132.6402982411
 10
520.9809043466
 20
-131.5640337802
 10
525.4790504615
 20
-130.8067047747
 10
529.8876661335
 20
-130.3703861314
 10
534.1946683879
 20
-130.256273685
 10
538.3882561071
 20
-130.4646826807
 10
542.4569284699
 20
-130.9950432132
 10
546.3895350006
 20
-131.845901752
 10
550.1752966428
 20
-133.0149211438
 10
553.8038452716
 20
-134.498894304
 10
557.2652236942
 20
-136.2937624684
 10
560.5499488696
 20
-138.3946030314
 10
563.6490171773
 20
-140.7956630068
 10
566.5539360274
 20
-143.4903468634
 10
569.2567449338
 20
-146.4712773644
 10
571.7500313195
 20
-149.7302864427
 10
574.0269621267
 20
-153.2584425809
 10
576.0812943536
 20
-157.0460690635
 10
577.9074013957
 20
-161.0827865649
 10
579.5002783149
 20
-165.3575314013
 10
580.855557644
 20
-169.8585859507
 10
581.9695251919
 20
-174.5736121147
 10
582.8391305805
 20
-179.4896863006
 10
583.4619767078
 20
-184.5933404858
 10
583.8363776998
 20
-189.8705751506
 10
583.9612904221
 20
-195.3069345581
 10
583.8363776998
 20
-200.8875151249
 10
583.4619767078
 20
-206.5970239739
 10
582.8391305805
 20
-212.4198009907
 10
581.9695251919
 20
-218.3399001871
 10
580.855557644
 20
-224.3410859052
 10
579.5002783149
 20
-230.4069126609
 10
577.9074013957
 20
-236.5207540419
 10
576.0812943536
 20
-242.6658498561
 10
574.0269621267
 20
-248.8253578408
 10
571.7500313195
 20
-254.9824023316
 10
569.2567449338
 20
-261.1200985963
 10
566.5539360274
 20
-267.2216258368
 10
563.6490171773
 20
-273.2702576069
 10
560.5499488696
 20
-279.2494256882
 10
557.2652236942
 20
-285.1427292138
 10
553.8038452716
 20
-290.9340198388
 10
550.1752966428
 20
-296.6074260713
 10
546.3895350006
 20
-302.1473928168
 10
542.4569284699
 20
-307.538742209
 10
538.3882561071
 20
-312.7666918605
 10
534.1946683879
 20
-317.816914176
 10
529.8876661335
 20
-322.6755606843
 10
525.4790504615
 20
-327.3293213505
 10
520.9809043466
 20
-331.7654413036
 10
516.4055583761
 20
-335.9717588573
 10
511.7655538716
 20
-339.93674505
 10
507.0736073276
 20
-343.6495363416
 10
502.3425801183
 20
-347.0999399339
 10
497.5854383266
 20
-350.2785238815
 10
492.8152217922
 20
-353.176555872
 10
488.0450052577
 20
-355.7860986601
 10
483.287863466
 20
-358.0999937145
 10
478.5568362567
 20
-360.1119178692
 10
473.8648897127
 20
-361.8163327488
 10
469.2248852082
 20
-363.208581725
 10
464.6495392377
 20
-364.284846186
 10
460.1513931228
 20
-365.0421751914
 10
455.7427774508
 20
-365.4784938348
 10
451.4357751964
 20
-365.5926062812
 10
447.2421874772
 20
-365.3841972855
 10
443.1735151144
 20
-364.853836753
 10
439.2409085837
 20
-364.0029782142
 10
435.4551469415
 20
-362.8339588224
 10
431.8265983127
 20
-361.3499856622
 10
428.3652198901
 20
-359.5551174977
 10
425.0804947147
 20
-357.4542769348
 10
421.981426407
 20
-355.0532169594
 10
419.0765075569
 20
-352.3585331028
 10
416.3736986505
 20
-349.3776026018
 10
413.8804122648
 20
-346.1185935235
 10
411.6034814576
 20
-342.5904373853
 10
409.5491492308
 20
-338.8028109027
 10
407.7230421886
 20
-334.7660934013
 10
406.1301652694
 20
-330.4913485649
 10
404.7748859404
 20
-325.9902940155
 10
403.6609183924
 20
-321.2752678515
 10
402.7913130038
 20
-316.3591936655
 10
402.1684668765
 20
-311.2555394804
 10
401.7940658845
 20
-305.9783048156
 10
401.6691531622
 20
-300.5419454081
  0
ARC
  5
E2
330
1F
100
AcDbEntity
  8
0
  6
Continuous
 62
     7
370
    25
100
AcDbCircle
 10
650.8250512788
 20
-218.6900643436
 30
0.0
 40
53.18311879312268
100
AcDbArc
 50
47.8941466702
 51
59.9702373153
  0
ARC
  5
E3
330
1F
100
AcDbEntity
  8
0
  6
Continuous
 62
     7
370
    25
100
AcDbCircle
 10
546.5577059464
 20
-399.2873147831
 30
0.0
 40
53.28142965263889
100
AcDbArc
 50
240.0451148709
 51
252.3942127608
  0
ARC
  5
E4
330
1F
100
AcDbEntity
  8
0
  6
Continuous
 62
     7
370
    25
100
AcDbCircle
 10
645.6823965836
 20
-224.6330999056
 30
0.0
 40
61.03883954942489
100
AcDbArc
 50
27.6161740062
 51
50.4736613609
  0
ARC
  5
E5
330
1F
100
AcDbEntity
  8
0
  6
Continuous
 62
     7
370
    25
100
AcDbCircle
 10
548.9594947792
 20
-392.7781938356
 30
0.0
 40
60.21859725546358
100
AcDbArc
 50
249.3736599803
 51
272.5318581217
  0
ARC
  5
E6
330
1F
100
AcDbEntity
  8
0
  6
Continuous
 62
     7
370
    25
100
AcDbCircle
 10
684.882439135
 20
-261.9479502139
 30
0.0
 40
56.62731931621483
100
AcDbArc
 50
27.9640644709
 51
41.5049897979
  0
ARC
  5
E7
330
1F
100
AcDbEntity
  8
0
  6
Continuous
 62
     7
370
    25
100
AcDbCircle
 10
600.8713275787
 20
-408.2564676027
 30
0.0
 40
55.60162326024581
100
AcDbArc
 50
258.4295890729
 51
269.7194617178
  0
LWPOLYLINE
  5
E8
330
1F
100
AcDbEntity
  8
0
  6
Continuous
 62
     7
370
    25
100
AcDbPolyline
 90
       65
 70
   128
 43
0.0
 10
813.8324412518
 20
-271.5900413372
 10
814.2765689364
 20
-271.8497020003
 10
817.6825400583
 20
-274.0717899761
 10
820.9019692286
 20
-276.5938904354
 10
823.926727374
 20
-279.4096299362
 10
826.7491753783
 20
-282.511895913
 10
829.3621851555
 20
-285.8928488453
 10
831.7591554557
 20
-289.54395572
 10
833.9340276693
 20
-293.4559869911
 10
835.8813069009
 20
-297.6190652509
 10
837.5960830427
 20
-302.022671316
 10
839.0740149693
 20
-306.6556807277
 10
840.3113726846
 20
-311.5063941752
 10
841.3050267851
 20
-316.5625542237
 10
842.05248007
 20
-321.8113879043
 10
842.5518253944
 20
-327.2396416907
 10
842.8018194264
 20
-332.8335961454
 10
842.8018194264
 20
-338.5791256099
 10
842.5518253944
 20
-344.46171703
 10
842.05248007
 20
-350.4665026562
 10
841.3050267851
 20
-356.5783275303
 10
840.3113726846
 20
-362.7817361834
 10
839.0740149693
 20
-369.0610724398
 10
837.5960830427
 20
-375.4004657326
 10
835.8813069009
 20
-381.7839101889
 10
833.9340276693
 20
-388.1952691935
 10
831.7591554557
 20
-394.6183544731
 10
829.3621851555
 20
-401.0369443489
 10
826.7491753783
 20
-407.4348141531
 10
823.926727374
 20
-413.7958092316
 10
820.9019692286
 20
-420.1038601512
 10
817.6825400583
 20
-426.3430344104
 10
814.2765689364
 20
-432.497572939
 10
810.6926696252
 20
-438.5519174744
 10
806.939887892
 20
-444.4907835614
 10
803.0277067777
 20
-450.2991696778
 10
798.96600445
 20
-455.9623998167
 10
794.7650489348
 20
-461.4661691138
 10
790.4354454329
 20
-466.7965742606
 10
785.9881310515
 20
-471.9401530483
 10
781.434343194
 20
-476.8839086998
 10
776.7855853159
 20
-481.6153539727
 10
772.0536005829
 20
-486.1225385342
 10
767.2503376265
 20
-490.3940748132
 10
762.3879360563
 20
-494.4191706989
 10
757.478675093
 20
-498.1876713617
 10
752.5349571054
 20
-501.690032255
 10
747.5692697438
 20
-504.9174261465
 10
742.5941576224
 20
-507.8616986291
 10
737.6221877462
 20
-510.5154124143
 10
732.6659205345
 20
-512.8718518922
 10
727.7378739306
 20
-514.9250681856
 10
722.8504990354
 20
-516.6698932162
 10
718.0161409245
 20
-518.1018893207
 10
713.2470116471
 20
-519.2174621763
 10
708.5551559822
 20
-520.0137953982
 10
703.9524303652
 20
-520.4888505375
 10
699.4504567896
 20
-520.6414666973
 10
695.0606149045
 20
-520.4712190864
 10
690.7939840626
 20
-519.9785680638
 10
686.6613538572
 20
-519.1647374663
 10
682.673150365
 20
-518.0317997732
 10
678.8394572193
 20
-516.5826031036
 10
675.1699576588
 20
-514.8208168393
 10
673.8438228755
 20
-514.0837217324
  0
LWPOLYLINE
  5
E9
330
1F
100
AcDbEntity
  8
0
  6
Continuous
 62
     1
370
    25
100
AcDbPolyline
 90
       63
 70
   128
 43
0.0
 10
686.4844608998
 20
-179.2331178063
 10
688.1740911781
 20
-180.8227015874
 10
691.2056929181
 20
-184.037487028
 10
694.0308699308
 20
-187.5312213061
 10
696.6433212623
 20
-191.2961045231
 10
699.0372201109
 20
-195.3237406219
 10
701.2072138267
 20
-199.6051434707
 10
703.1484765957
 20
-204.1307520773
 10
704.8566567557
 20
-208.8904822954
 10
706.3279610904
 20
-213.8736964141
 10
707.5591021455
 20
-219.069285283
 10
708.5473193026
 20
-224.4656546259
 10
709.2904209254
 20
-230.0507615468
 10
709.7867422134
 20
-235.812145705
 10
710.0351873487
 20
-241.736943958
 10
710.0351873487
 20
-247.81194397
 10
709.7867422134
 20
-254.0235908704
 10
709.2904209254
 20
-260.3580153903
 10
708.5473193026
 20
-266.8010891826
 10
707.5591021455
 20
-273.3384297687
 10
706.3279610904
 20
-279.9554638436
 10
704.8566567557
 20
-286.6374097886
 10
703.1484765957
 20
-293.3693628395
 10
701.2072138267
 20
-300.136305731
 10
699.0372201109
 20
-306.9231299948
 10
696.6433212623
 20
-313.7147028721
 10
694.0308699308
 20
-320.4958581933
 10
691.2056929181
 20
-327.2514724192
 10
688.1740911781
 20
-333.9664707246
 10
684.9428240117
 20
-340.6258726248
 10
681.519114335
 20
-347.2148071853
 10
677.9105959959
 20
-353.7185799375
 10
674.1253190425
 20
-360.1226759211
 10
670.1717339179
 20
-366.4128053103
 10
666.0586598503
 20
-372.5749277459
 10
661.7952743157
 20
-378.595313171
 10
657.3910919654
 20
-384.4604931597
 10
652.8559435516
 20
-390.1574190913
 10
648.1999390498
 20
-395.6733435145
 10
643.4334781947
 20
-400.9959844084
 10
638.5671925289
 20
-406.1134491312
 10
633.6119375001
 20
-411.0143241534
 10
628.578776656
 20
-415.6876841822
 10
623.4789368634
 20
-420.1230815111
 10
618.3237990884
 20
-424.3106243461
 10
613.1248654695
 20
-428.2409836474
 10
607.8937375852
 20
-431.9053691723
 10
602.6420884662
 20
-435.2956186371
 10
597.3816357597
 20
-438.4041645394
 10
592.1241181859
 20
-441.2240599162
 10
586.8812675509
 20
-443.7490310041
 10
581.6647810866
 20
-445.9734202011
 10
576.4863018601
 20
-447.8922825491
 10
571.357380742
 20
-449.501334684
 10
566.2894671872
 20
-450.7969723256
 10
561.2938644534
 20
-451.7763204639
 10
556.3817256507
 20
-452.4371869704
 10
551.5640063253
 20
-452.7781021379
 10
546.8514618261
 20
-452.7982836988
 10
542.2546051578
 20
-452.497721993
 10
537.7836885412
 20
-451.8770567715
 10
533.448695511
 20
-450.9376912646
 10
530.441876118
 20
-450.0730487521
  0
LWPOLYLINE
  5
EA
330
1F
100
AcDbEntity
  8
0
  6
Continuous
 62
     1
370
    25
100
AcDbPolyline
 90
       25
 70
   128
 43
0.0
 10
508.6595392364
 20
-342.427345885
 10
509.2661693637
 20
-338.4735934966
 10
510.3801369117
 20
-332.4724077784
 10
511.7354162407
 20
-326.4065810228
 10
513.3282931599
 20
-320.2927396417
 10
515.1544002021
 20
-314.1476438276
 10
517.2087324289
 20
-307.9881358428
 10
519.4856632362
 20
-301.831091352
 10
521.9789496219
 20
-295.6933950874
 10
524.6817585282
 20
-289.5918678469
 10
527.5866773783
 20
-283.5432360767
 10
530.685745686
 20
-277.5640679954
 10
533.9704708614
 20
-271.6707644698
 10
537.431849284
 20
-265.8794738449
 10
541.0603979129
 20
-260.2060676124
 10
544.846159555
 20
-254.6661008668
 10
548.7787660857
 20
-249.2747514747
 10
552.8474384485
 20
-244.0468018231
 10
557.0410261677
 20
-238.9965795077
 10
561.3480284221
 20
-234.1379329993
 10
565.7566440941
 20
-229.4841723332
 10
570.254790209
 20
-225.04805238
 10
574.8301361796
 20
-220.8417348263
 10
579.470140684
 20
-216.8767486336
 10
582.5761500509
 20
-214.3861545265
  0
LWPOLYLINE
  5
EB
330
1F
100
AcDbEntity
  8
0
  6
Continuous
 62
     1
370
    25
100
AcDbPolyline
 90
       54
 70
   128
 43
0.0
 10
699.7672496252
 20
-196.338778832
 10
701.5261956642
 20
-199.860802663
 10
703.466626033
 20
-204.3844978669
 10
705.1740896966
 20
-209.1422021446
 10
706.6447723652
 20
-214.12330516
 10
707.875376048
 20
-219.3166947198
 10
708.8631822733
 20
-224.7107735099
 10
709.6059677947
 20
-230.2935107988
 10
710.1020783486
 20
-236.0524515699
 10
710.3504181167
 20
-241.9747364832
 10
710.3504181167
 20
-248.047160047
 10
710.1020783486
 20
-254.2561719533
 10
709.6059677947
 20
-260.5879097776
 10
708.8631822733
 20
-267.0282489749
 10
707.875376048
 20
-273.5628245566
 10
706.6447723652
 20
-280.1770388855
 10
705.1740896966
 20
-286.8561559669
 10
703.466626033
 20
-293.5852558282
 10
701.5261956642
 20
-300.3493242481
 10
699.3571186423
 20
-307.1332740482
 10
696.9642418548
 20
-313.9219633461
 10
694.3528968781
 20
-320.7002411795
 10
691.5289105139
 20
-327.4529961767
 10
688.4985942528
 20
-334.1651474296
 10
685.2687021273
 20
-340.8217174951
 10
681.8464412485
 20
-347.4078628136
 10
678.2394507327
 20
-353.908873708
 10
674.4557806279
 20
-360.3102534689
 10
670.5038761089
 20
-366.5977153119
 10
666.3925458671
 20
-372.7572249606
 10
662.1309673787
 20
-378.7750462745
 10
657.7286552947
 20
-384.6377473297
 10
653.1954245626
 20
-390.3322521273
 10
648.5414009626
 20
-395.8458405944
 10
643.7769578879
 20
-401.166221582
 10
638.9127374177
 20
-406.2815207002
 10
633.9595870971
 20
-411.1803168143
 10
628.9285599372
 20
-415.8516907143
 10
623.8308828048
 20
-420.2852068609
 10
618.6779300805
 20
-424.4709894294
 10
613.4812025857
 20
-428.3996736379
 10
608.2522933378
 20
-432.0625106884
 10
603.0028714164
 20
-435.4513162431
 10
597.7446499409
 20
-438.5585375808
 10
592.4893621166
 20
-441.37724309
 10
587.2487353863
 20
-443.9011371909
 10
582.0344616316
 20
-446.1245897052
 10
576.8581779925
 20
-448.0426347616
 10
571.7314327055
 20
-449.6510026841
 10
566.6656686399
 20
-450.9460929941
 10
561.6721864195
 20
-451.9250200349
 10
556.7621286173
 20
-452.5856099282
 10
551.9464560483
 20
-452.9263777579
 10
551.6196441166
 20
-452.9380065092
  0
LWPOLYLINE
  5
EC
330
1F
100
AcDbEntity
  8
0
  6
Continuous
 62
     1
370
    25
100
AcDbPolyline
 90
       52
 70
   128
 43
0.0
 10
734.8980584614
 20
-235.3943983548
 10
735.5110211527
 20
-236.5653588356
 10
737.459227615
 20
-240.7304235115
 10
739.1748256203
 20
-245.1361285313
 10
740.6534635066
 20
-249.7713494354
 10
741.8914112778
 20
-254.6243747453
 10
742.8855395303
 20
-259.6829485476
 10
743.6333405267
 20
-264.9342917883
 10
744.1329281956
 20
-270.3651334527
 10
744.3830381313
 20
-275.9617588541
 10
744.3830381313
 20
-281.7100301675
 10
744.1329281956
 20
-287.595426354
 10
743.6333405267
 20
-293.6030796631
 10
742.8855395303
 20
-299.7178155565
 10
741.8914112778
 20
-305.9241854075
 10
740.6534635066
 20
-312.2065147905
 10
739.1748256203
 20
-318.5489346594
 10
737.459227615
 20
-324.9354269739
 10
735.5110211527
 20
-331.3498429523
 10
733.335111073
 20
-337.7759973628
 10
730.9369975395
 20
-344.1976441921
 10
728.3227444302
 20
-350.5985678986
 10
725.4989477269
 20
-356.9625986184
 10
722.4727460519
 20
-363.2736608356
 10
719.2517785215
 20
-369.5158098813
 10
715.844184746
 20
-375.6732866862
 10
712.2585732191
 20
-381.7305238618
 10
708.5040002448
 20
-387.6722247864
 10
704.5899541325
 20
-393.4833788127
 10
700.5263130498
 20
-399.1493099339
 10
696.3233502909
 20
-404.6557102442
 10
691.9916815935
 20
-409.9886581851
 10
687.5422466987
 20
-415.1346961109
 10
682.9862882785
 20
-420.0807998681
 10
678.3353097883
 20
-424.814512633
 10
673.6010675648
 20
-429.3238399671
 10
668.7955128735
 20
-433.5974171134
 10
663.9307905924
 20
-437.6244367525
 10
659.0191878448
 20
-441.3947273253
 10
654.0731102923
 20
-444.8987667189
 10
649.1050538168
 20
-448.1276986144
 10
644.1275677248
 20
-451.0733780634
 10
639.1532253597
 20
-453.7283519506
 10
634.1945926561
 20
-456.0859136498
 10
629.2641950483
 20
-458.1401221266
 10
624.3744875885
 20
-459.8857705197
 10
619.5378219376
 20
-461.3184538661
 10
614.7664167304
 20
-462.434561874
 10
610.0723246484
 20
-463.2312614291
 10
605.4674021269
 20
-463.7065505848
 10
600.9632816962
 20
-463.8592380268
 10
600.5990855099
 20
-463.85742437
  0
LWPOLYLINE
  5
ED
330
1F
100
AcDbEntity
  8
0
  6
Continuous
 62
     1
370
    25
100
AcDbPolyline
 90
       25
 70
   128
 43
0.0
 10
509.8929812461
 20
-341.4537538217
 10
510.2878234596
 20
-338.9583638329
 10
511.4003422096
 20
-332.9649575142
 10
512.7538671761
 20
-326.9069876965
 10
514.3446788998
 20
-320.801070145
 10
516.16842045
 20
-314.6639346344
 10
518.2200974254
 20
-308.5124021353
 10
520.4940779533
 20
-302.3633391862
 10
522.9841295683
 20
-296.2336001017
 10
525.6834350179
 20
-290.1399783047
 10
528.5845922618
 20
-284.0991759075
 10
531.6796460822
 20
-278.1277580873
 10
534.9601144259
 20
-272.2420892097
 10
538.4170094774
 20
-266.4583024119
 10
542.0408534643
 20
-260.7922478931
 10
545.8217155353
 20
-255.2594533738
 10
549.7492275657
 20
-249.8750906367
 10
553.8126263041
 20
-244.6539207775
 10
558.0007770799
 20
-239.6102440164
 10
562.3022001452
 20
-234.7578844917
 10
566.7051049192
 20
-230.1101522395
 10
571.1974215981
 20
-225.6797823598
 10
575.7668406681
 20
-221.4789122061
 10
580.4008326612
 20
-217.5190699806
 10
582.3498623041
 20
-215.9411455956
  0
LWPOLYLINE
  5
EE
330
1F
100
AcDbEntity
  8
0
  6
Continuous
 62
     1
370
    25
100
AcDbPolyline
 90
       58
 70
   128
 43
0.0
 10
725.8254303863
 20
-222.7779304593
 10
728.6456340709
 20
-225.8779270042
 10
731.2586438481
 20
-229.2588799364
 10
733.6556141483
 20
-232.9099868112
 10
735.8304863619
 20
-236.8220180823
 10
737.7777655935
 20
-240.9850963421
 10
739.4925417353
 20
-245.3887024071
 10
740.9704736619
 20
-250.0217118189
 10
742.2078313772
 20
-254.8724252663
 10
743.2014854777
 20
-259.9285853148
 10
743.9489387626
 20
-265.1774189954
 10
744.448284087
 20
-270.6056727819
 10
744.698278119
 20
-276.1996272366
 10
744.698278119
 20
-281.945156701
 10
744.448284087
 20
-287.8277481212
 10
743.9489387626
 20
-293.8325337474
 10
743.2014854777
 20
-299.9443586215
 10
742.2078313772
 20
-306.1477672745
 10
740.9704736619
 20
-312.4271035309
 10
739.4925417353
 20
-318.7664968238
 10
737.7777655935
 20
-325.1499412801
 10
735.8304863619
 20
-331.5613002847
 10
733.6556141483
 20
-337.9843855643
 10
731.2586438481
 20
-344.4029754401
 10
728.6456340709
 20
-350.8008452443
 10
725.8231860666
 20
-357.1618403227
 10
722.7984279212
 20
-363.4698912424
 10
719.5789987508
 20
-369.7090655016
 10
716.173027629
 20
-375.8636040302
 10
712.5891283178
 20
-381.9179485656
 10
708.8363465846
 20
-387.8568146525
 10
704.9241654703
 20
-393.6652007689
 10
700.8624631426
 20
-399.3284309079
 10
696.6615076274
 20
-404.8322002049
 10
692.3319041255
 20
-410.1626053517
 10
687.8845897441
 20
-415.3061841395
 10
683.3308018866
 20
-420.2499397909
 10
678.6820440085
 20
-424.9813850638
 10
673.9500592755
 20
-429.4885696253
 10
669.1467963191
 20
-433.7601059043
 10
664.2843947489
 20
-437.7852017901
 10
659.3751337856
 20
-441.5537024529
 10
654.431415798
 20
-445.0560633461
 10
649.4657284364
 20
-448.2834572376
 10
644.490616315
 20
-451.2277297203
 10
639.5186464388
 20
-453.8814435055
 10
634.5623792271
 20
-456.2378829834
 10
629.6343326232
 20
-458.2910992767
 10
624.746957728
 20
-460.0359243074
 10
619.9125996171
 20
-461.4679204119
 10
615.1434703397
 20
-462.5834932674
 10
610.4516146748
 20
-463.3798264893
 10
605.8488890578
 20
-463.8548816286
 10
601.3469154822
 20
-464.0074977885
 10
596.9570735971
 20
-463.8372501775
 10
592.6904427552
 20
-463.3445991549
 10
588.5578125498
 20
-462.5307685575
 10
587.562925654
 20
-462.2815658121
  0
ENDSEC
  0
SECTION
  2
OBJECTS
  0
DICTIONARY
  5
C
330
0
100
AcDbDictionary
281
     1
  3
ACAD_GROUP
350
D
  3
ACAD_LAYOUT
350
1A
  3
ACAD_MLINESTYLE
350
17
  3
ACAD_PLOTSETTINGS
350
19
  3
ACAD_PLOTSTYLENAME
350
E
  3
ACAD_SCALELIST
350
47
  0
DICTIONARY
  5
D
102
{ACAD_REACTORS
330
C
102
}
330
C
100
AcDbDictionary
281
     1
  0
DICTIONARY
  5
1A
102
{ACAD_REACTORS
330
C
102
}
330
C
100
AcDbDictionary
281
     1
  3
Layout1
350
1E
  3
Layout2
350
26
  3
Model
350
22
  0
DICTIONARY
  5
17
102
{ACAD_REACTORS
330
C
102
}
330
C
100
AcDbDictionary
281
     1
  3
Standard
350
18
  0
DICTIONARY
  5
19
102
{ACAD_REACTORS
330
C
102
}
330
C
100
AcDbDictionary
281
     1
  0
ACDBDICTIONARYWDFLT
  5
E
102
{ACAD_REACTORS
330
C
102
}
330
C
100
AcDbDictionary
281
     1
  3
Normal
350
F
100
AcDbDictionaryWithDefault
340
F
  0
DICTIONARY
  5
47
102
{ACAD_REACTORS
330
C
102
}
330
C
100
AcDbDictionary
281
     1
  3
A0
350
48
  3
A1
350
49
  3
A2
350
4A
  3
A3
350
4B
  3
A4
350
4C
  3
A5
350
4D
  3
A6
350
4E
  3
A7
350
4F
  3
A8
350
50
  3
A9
350
51
  3
B0
350
52
  3
B1
350
53
  3
B2
350
54
  3
B3
350
55
  3
B4
350
56
  3
B5
350
57
  3
B6
350
58
  3
B7
350
59
  3
B8
350
5A
  3
B9
350
5B
  3
C0
350
5C
  3
C1
350
5D
  3
C2
350
5E
  3
C3
350
5F
  3
C4
350
60
  3
C5
350
61
  3
C6
350
62
  3
C7
350
63
  3
C8
350
64
  3
C9
350
65
  3
D0
350
66
  3
D1
350
67
  3
D2
350
68
  0
LAYOUT
  5
1E
102
{ACAD_REACTORS
330
1A
102
}
330
1A
100
AcDbPlotSettings
  1

  2
none_device
  4

  6

 40
0.0
 41
0.0
 42
0.0
 43
0.0
 44
0.0
 45
0.0
 46
0.0
 47
0.0
 48
0.0
 49
0.0
140
0.0
141
0.0
142
1.0
143
1.0
 70
   688
 72
     1
 73
     0
 74
     5
  7

 75
    16
147
1.0
148
0.0
149
0.0
100
AcDbLayout
  1
Layout1
 70
     1
 71
     1
 10
0.0
 20
0.0
 11
420.0
 21
297.0
 12
0.0
 22
0.0
 32
0.0
 14
1.0000000000E+20
 24
1.0000000000E+20
 34
1.0000000000E+20
 15
-1.0000000000E+20
 25
-1.0000000000E+20
 35
-1.0000000000E+20
146
0.0
 13
0.0
 23
0.0
 33
0.0
 16
1.0
 26
0.0
 36
0.0
 17
0.0
 27
1.0
 37
0.0
 76
     0
330
1B
  0
LAYOUT
  5
26
102
{ACAD_REACTORS
330
1A
102
}
330
1A
100
AcDbPlotSettings
  1

  2
none_device
  4

  6

 40
0.0
 41
0.0
 42
0.0
 43
0.0
 44
0.0
 45
0.0
 46
0.0
 47
0.0
 48
0.0
 49
0.0
140
0.0
141
0.0
142
1.0
143
1.0
 70
   688
 72
     1
 73
     0
 74
     5
  7

 75
    16
147
1.0
148
0.0
149
0.0
100
AcDbLayout
  1
Layout2
 70
     1
 71
     2
 10
0.0
 20
0.0
 11
0.0
 21
0.0
 12
0.0
 22
0.0
 32
0.0
 14
0.0
 24
0.0
 34
0.0
 15
0.0
 25
0.0
 35
0.0
146
0.0
 13
0.0
 23
0.0
 33
0.0
 16
1.0
 26
0.0
 36
0.0
 17
0.0
 27
1.0
 37
0.0
 76
     0
330
23
  0
LAYOUT
  5
22
102
{ACAD_REACTORS
330
1A
102
}
330
1A
100
AcDbPlotSettings
  1

  2
none_device
  4
Letter_(8.50_x_11.00_Inches)
  6

 40
6.35
 41
6.35
 42
6.35000508
 43
6.35000508
 44
215.9
 45
279.4
 46
0.0
 47
0.0
 48
0.0
 49
0.0
140
0.0
141
0.0
142
1.0
143
1.0
 70
  1712
 72
     1
 73
     0
 74
     0
  7

 75
     0
147
1.0
148
0.0
149
0.0
100
AcDbLayout
  1
Model
 70
     1
 71
     0
 10
0.0
 20
0.0
 11
279.4
 21
215.9
 12
0.0
 22
0.0
 32
0.0
 14
0.0
 24
0.0
 34
0.0
 15
279.4
 25
215.9
 35
0.0
146
0.0
 13
0.0
 23
0.0
 33
0.0
 16
1.0
 26
0.0
 36
0.0
 17
0.0
 27
1.0
 37
0.0
 76
     0
330
1F
331
29
  0
MLINESTYLE
  5
18
102
{ACAD_REACTORS
330
17
102
}
330
17
100
AcDbMlineStyle
  2
Standard
 70
     0
  3

 62
   256
 51
90.0
 52
90.0
 71
     2
 49
0.5
 62
   256
  6
BYLAYER
 49
-0.5
 62
   256
  6
BYLAYER
  0
ACDBPLACEHOLDER
  5
F
102
{ACAD_REACTORS
330
E
102
}
330
E
  0
SCALE
  5
48
102
{ACAD_REACTORS
330
47
102
}
330
47
100
AcDbScale
 70
     0
300
1:1
140
1.0
141
1.0
290
     1
  0
SCALE
  5
49
102
{ACAD_REACTORS
330
47
102
}
330
47
100
AcDbScale
 70
     0
300
1:2
140
1.0
141
2.0
290
     0
  0
SCALE
  5
4A
102
{ACAD_REACTORS
330
47
102
}
330
47
100
AcDbScale
 70
     0
300
1:4
140
1.0
141
4.0
290
     0
  0
SCALE
  5
4B
102
{ACAD_REACTORS
330
47
102
}
330
47
100
AcDbScale
 70
     0
300
1:5
140
1.0
141
5.0
290
     0
  0
SCALE
  5
4C
102
{ACAD_REACTORS
330
47
102
}
330
47
100
AcDbScale
 70
     0
300
1:8
140
1.0
141
8.0
290
     0
  0
SCALE
  5
4D
102
{ACAD_REACTORS
330
47
102
}
330
47
100
AcDbScale
 70
     0
300
1:10
140
1.0
141
10.0
290
     0
  0
SCALE
  5
4E
102
{ACAD_REACTORS
330
47
102
}
330
47
100
AcDbScale
 70
     0
300
1:16
140
1.0
141
16.0
290
     0
  0
SCALE
  5
4F
102
{ACAD_REACTORS
330
47
102
}
330
47
100
AcDbScale
 70
     0
300
1:20
140
1.0
141
20.0
290
     0
  0
SCALE
  5
50
102
{ACAD_REACTORS
330
47
102
}
330
47
100
AcDbScale
 70
     0
300
1:30
140
1.0
141
30.0
290
     0
  0
SCALE
  5
51
102
{ACAD_REACTORS
330
47
102
}
330
47
100
AcDbScale
 70
     0
300
1:40
140
1.0
141
40.0
290
     0
  0
SCALE
  5
52
102
{ACAD_REACTORS
330
47
102
}
330
47
100
AcDbScale
 70
     0
300
1:50
140
1.0
141
50.0
290
     0
  0
SCALE
  5
53
102
{ACAD_REACTORS
330
47
102
}
330
47
100
AcDbScale
 70
     0
300
1:100
140
1.0
141
100.0
290
     0
  0
SCALE
  5
54
102
{ACAD_REACTORS
330
47
102
}
330
47
100
AcDbScale
 70
     0
300
2:1
140
2.0
141
1.0
290
     0
  0
SCALE
  5
55
102
{ACAD_REACTORS
330
47
102
}
330
47
100
AcDbScale
 70
     0
300
4:1
140
4.0
141
1.0
290
     0
  0
SCALE
  5
56
102
{ACAD_REACTORS
330
47
102
}
330
47
100
AcDbScale
 70
     0
300
8:1
140
8.0
141
1.0
290
     0
  0
SCALE
  5
57
102
{ACAD_REACTORS
330
47
102
}
330
47
100
AcDbScale
 70
     0
300
10:1
140
10.0
141
1.0
290
     0
  0
SCALE
  5
58
102
{ACAD_REACTORS
330
47
102
}
330
47
100
AcDbScale
 70
     0
300
100:1
140
100.0
141
1.0
290
     0
  0
SCALE
  5
59
102
{ACAD_REACTORS
330
47
102
}
330
47
100
AcDbScale
 70
     0
300
1/128" = 1'-0"
140
0.0078125
141
12.0
290
     0
  0
SCALE
  5
5A
102
{ACAD_REACTORS
330
47
102
}
330
47
100
AcDbScale
 70
     0
300
1/64" = 1'-0"
140
0.015625
141
12.0
290
     0
  0
SCALE
  5
5B
102
{ACAD_REACTORS
330
47
102
}
330
47
100
AcDbScale
 70
     0
300
1/32" = 1'-0"
140
0.03125
141
12.0
290
     0
  0
SCALE
  5
5C
102
{ACAD_REACTORS
330
47
102
}
330
47
100
AcDbScale
 70
     0
300
1/16" = 1'-0"
140
0.0625
141
12.0
290
     0
  0
SCALE
  5
5D
102
{ACAD_REACTORS
330
47
102
}
330
47
100
AcDbScale
 70
     0
300
3/32" = 1'-0"
140
0.09375
141
12.0
290
     0
  0
SCALE
  5
5E
102
{ACAD_REACTORS
330
47
102
}
330
47
100
AcDbScale
 70
     0
300
1/8" = 1'-0"
140
0.125
141
12.0
290
     0
  0
SCALE
  5
5F
102
{ACAD_REACTORS
330
47
102
}
330
47
100
AcDbScale
 70
     0
300
3/16" = 1'-0"
140
0.1875
141
12.0
290
     0
  0
SCALE
  5
60
102
{ACAD_REACTORS
330
47
102
}
330
47
100
AcDbScale
 70
     0
300
1/4" = 1'-0"
140
0.25
141
12.0
290
     0
  0
SCALE
  5
61
102
{ACAD_REACTORS
330
47
102
}
330
47
100
AcDbScale
 70
     0
300
3/8" = 1'-0"
140
0.375
141
12.0
290
     0
  0
SCALE
  5
62
102
{ACAD_REACTORS
330
47
102
}
330
47
100
AcDbScale
 70
     0
300
1/2" = 1'-0"
140
0.5
141
12.0
290
     0
  0
SCALE
  5
63
102
{ACAD_REACTORS
330
47
102
}
330
47
100
AcDbScale
 70
     0
300
3/4" = 1'-0"
140
0.75
141
12.0
290
     0
  0
SCALE
  5
64
102
{ACAD_REACTORS
330
47
102
}
330
47
100
AcDbScale
 70
     0
300
1" = 1'-0"
140
1.0
141
12.0
290
     0
  0
SCALE
  5
65
102
{ACAD_REACTORS
330
47
102
}
330
47
100
AcDbScale
 70
     0
300
1-1/2" = 1'-0"
140
1.5
141
12.0
290
     0
  0
SCALE
  5
66
102
{ACAD_REACTORS
330
47
102
}
330
47
100
AcDbScale
 70
     0
300
3" = 1'-0"
140
3.0
141
12.0
290
     0
  0
SCALE
  5
67
102
{ACAD_REACTORS
330
47
102
}
330
47
100
AcDbScale
 70
     0
300
6" = 1'-0"
140
6.0
141
12.0
290
     0
  0
SCALE
  5
68
102
{ACAD_REACTORS
330
47
102
}
330
47
100
AcDbScale
 70
     0
300
1'-0" = 1'-0"
140
12.0
141
12.0
290
     0
  0
ENDSEC
  0
EOF
